ISO-10303-21;
HEADER;
FILE_DESCRIPTION (( 'STEP AP203' ),
    '1' );
FILE_NAME ('BK7-LPBSC-25.4-780.STEP',
    '2020-12-22T03:15:03',
    ( '' ),
    ( '' ),
    'SwSTEP 2.0',
    'SolidWorks 2020',
    '' );
FILE_SCHEMA (( 'CONFIG_CONTROL_DESIGN' ));
ENDSEC;

DATA;
#1 = DIRECTION ( 'NONE',  ( 0.000000000000000000, 0.000000000000000000, 1.000000000000000000 ) ) ;
#2 = PERSON ( 'UNSPECIFIED', 'UNSPECIFIED', 'UNSPECIFIED', ('UNSPECIFIED'), ('UNSPECIFIED'), ('UNSPECIFIED') ) ;
#3 = ORIENTED_EDGE ( 'NONE', *, *, #10, .F. ) ;
#4 = PLANE ( 'NONE',  #210 ) ;
#5 = ORIENTED_EDGE ( 'NONE', *, *, #317, .T. ) ;
#6 = ORIENTED_EDGE ( 'NONE', *, *, #149, .F. ) ;
#7 = PERSON_AND_ORGANIZATION_ROLE ( 'classification_officer' ) ;
#8 = SHAPE_DEFINITION_REPRESENTATION ( #235, #33 ) ;
#9 = VECTOR ( 'NONE', #80, 1000.000000000000000 ) ;
#10 = EDGE_CURVE ( 'NONE', #242, #299, #71, .T. ) ;
#11 = MECHANICAL_CONTEXT ( 'NONE', #108, 'mechanical' ) ;
#12 = DIRECTION ( 'NONE',  ( 0.000000000000000000, 0.000000000000000000, 1.000000000000000000 ) ) ;
#13 = EDGE_CURVE ( 'NONE', #24, #48, #289, .T. ) ;
#14 = LOCAL_TIME ( 11, 15, 3.000000000000000000, #208 ) ;
#15 = APPROVAL ( #255, 'UNSPECIFIED' ) ;
#16 = CARTESIAN_POINT ( 'NONE',  ( -12.69999999999999574, -12.69999999999999396, 12.69999999999999929 ) ) ;
#17 = APPROVAL_STATUS ( 'not_yet_approved' ) ;
#18 = CARTESIAN_POINT ( 'NONE',  ( -12.69999999999999751, -12.69999999999999929, 12.69999999999999929 ) ) ;
#19 = DIRECTION ( 'NONE',  ( 2.220446049250312588E-16, -1.000000000000000000, 0.000000000000000000 ) ) ;
#20 = CARTESIAN_POINT ( 'NONE',  ( 12.69999999999999929, -12.69999999999999929, -12.69999999999999929 ) ) ;
#21 = CARTESIAN_POINT ( 'NONE',  ( -12.69999999999999751, -12.69999999999999929, 12.69999999999999929 ) ) ;
#22 = DIRECTION ( 'NONE',  ( -0.000000000000000000, -0.000000000000000000, -1.000000000000000000 ) ) ;
#23 = FACE_OUTER_BOUND ( 'NONE', #146, .T. ) ;
#24 = VERTEX_POINT ( 'NONE', #16 ) ;
#25 = CARTESIAN_POINT ( 'NONE',  ( 12.69999999999999929, 12.69999999999999929, -12.69999999999999929 ) ) ;
#26 = SECURITY_CLASSIFICATION ( '', '', #209 ) ;
#27 = LINE ( 'NONE', #79, #153 ) ;
#28 = EDGE_CURVE ( 'NONE', #229, #46, #166, .T. ) ;
#29 = CARTESIAN_POINT ( 'NONE',  ( 12.69999999999999929, 12.69999999999999929, 12.69999999999999929 ) ) ;
#30 = EDGE_LOOP ( 'NONE', ( #321, #264, #200 ) ) ;
#31 = LINE ( 'NONE', #129, #101 ) ;
#32 = VECTOR ( 'NONE', #122, 1000.000000000000000 ) ;
#33 = ADVANCED_BREP_SHAPE_REPRESENTATION ( 'BK7-LPBSC-25.4-780', ( #159, #66, #256 ), #305 ) ;
#34 = DIRECTION ( 'NONE',  ( 1.000000000000000000, -2.220446049250312588E-16, 0.000000000000000000 ) ) ;
#35 = ORIENTED_EDGE ( 'NONE', *, *, #63, .T. ) ;
#36 = EDGE_CURVE ( 'NONE', #242, #229, #319, .T. ) ;
#37 = DATE_AND_TIME ( #253, #233 ) ;
#38 = AXIS2_PLACEMENT_3D ( 'NONE', #225, #171, #250 ) ;
#39 = PERSON_AND_ORGANIZATION ( #2, #207 ) ;
#40 = CC_DESIGN_APPROVAL ( #232, ( #26 ) ) ;
#41 = PERSON_AND_ORGANIZATION_ROLE ( 'creator' ) ;
#42 = ADVANCED_FACE ( 'NONE', ( #23 ), #194, .F. ) ;
#43 = AXIS2_PLACEMENT_3D ( 'NONE', #195, #294, #99 ) ;
#44 = CARTESIAN_POINT ( 'NONE',  ( -12.69999999999999574, -12.69999999999999396, 12.69999999999999929 ) ) ;
#45 = CALENDAR_DATE ( 2020, 22, 12 ) ;
#46 = VERTEX_POINT ( 'NONE', #20 ) ;
#47 = DIRECTION ( 'NONE',  ( -0.000000000000000000, -0.000000000000000000, -1.000000000000000000 ) ) ;
#48 = VERTEX_POINT ( 'NONE', #316 ) ;
#49 = PLANE ( 'NONE',  #302 ) ;
#50 = ORIENTED_EDGE ( 'NONE', *, *, #132, .T. ) ;
#51 = DIRECTION ( 'NONE',  ( 0.000000000000000000, 0.000000000000000000, 1.000000000000000000 ) ) ;
#52 = ORIENTED_EDGE ( 'NONE', *, *, #13, .T. ) ;
#53 = ORIENTED_EDGE ( 'NONE', *, *, #116, .T. ) ;
#54 = DIRECTION ( 'NONE',  ( 0.000000000000000000, 0.000000000000000000, 1.000000000000000000 ) ) ;
#55 = CC_DESIGN_DATE_AND_TIME_ASSIGNMENT ( #181, #307, ( #78 ) ) ;
#56 = CC_DESIGN_APPROVAL ( #15, ( #78 ) ) ;
#57 = LINE ( 'NONE', #29, #134 ) ;
#58 = ORIENTED_EDGE ( 'NONE', *, *, #63, .F. ) ;
#59 = CARTESIAN_POINT ( 'NONE',  ( 12.69999999999999929, 12.69999999999999929, 12.69999999999999929 ) ) ;
#60 = ORIENTED_EDGE ( 'NONE', *, *, #132, .F. ) ;
#61 = DIRECTION ( 'NONE',  ( 0.7071067811865474617, 0.7071067811865474617, 0.000000000000000000 ) ) ;
#62 = ORIENTED_EDGE ( 'NONE', *, *, #283, .T. ) ;
#63 = EDGE_CURVE ( 'NONE', #48, #271, #144, .T. ) ;
#64 = PERSON_AND_ORGANIZATION_ROLE ( 'design_owner' ) ;
#65 = APPROVAL_STATUS ( 'not_yet_approved' ) ;
#66 = MANIFOLD_SOLID_BREP ( '¾µÏ', #308 ) ;
#67 = COORDINATED_UNIVERSAL_TIME_OFFSET ( 8, 0, .AHEAD. ) ;
#68 = DIRECTION ( 'NONE',  ( -0.7071067811865475727, -0.7071067811865475727, 0.000000000000000000 ) ) ;
#69 = APPROVAL_PERSON_ORGANIZATION ( #119, #15, #314 ) ;
#70 = CARTESIAN_POINT ( 'NONE',  ( 12.69999999999999929, 12.69999999999999929, 12.69999999999999929 ) ) ;
#71 = LINE ( 'NONE', #18, #282 ) ;
#72 = CARTESIAN_POINT ( 'NONE',  ( 12.69999999999999929, 12.69999999999999929, 12.69999999999999929 ) ) ;
#73 = CARTESIAN_POINT ( 'NONE',  ( -12.69999999999999751, -12.69999999999999929, -12.69999999999999929 ) ) ;
#74 = FACE_OUTER_BOUND ( 'NONE', #107, .T. ) ;
#75 = CARTESIAN_POINT ( 'NONE',  ( 12.69999999999999574, 12.69999999999999574, 12.69999999999999929 ) ) ;
#76 = DESIGN_CONTEXT ( 'detailed design', #288, 'design' ) ;
#77 = CARTESIAN_POINT ( 'NONE',  ( 12.69999999999999929, 12.69999999999999929, 12.69999999999999929 ) ) ;
#78 = PRODUCT_DEFINITION ( 'UNKNOWN', '', #315, #76 ) ;
#79 = CARTESIAN_POINT ( 'NONE',  ( -12.70000000000000284, 12.70000000000000284, 12.69999999999999929 ) ) ;
#80 = DIRECTION ( 'NONE',  ( -0.000000000000000000, 1.000000000000000000, -0.000000000000000000 ) ) ;
#81 = FACE_OUTER_BOUND ( 'NONE', #292, .T. ) ;
#82 = ORIENTED_EDGE ( 'NONE', *, *, #237, .T. ) ;
#83 = VECTOR ( 'NONE', #22, 1000.000000000000000 ) ;
#84 = FACE_OUTER_BOUND ( 'NONE', #303, .T. ) ;
#85 = ORIENTED_EDGE ( 'NONE', *, *, #116, .F. ) ;
#86 = CARTESIAN_POINT ( 'NONE',  ( -12.69999999999999574, -12.69999999999999396, 12.69999999999999929 ) ) ;
#87 = ORIENTED_EDGE ( 'NONE', *, *, #114, .T. ) ;
#88 = AXIS2_PLACEMENT_3D ( 'NONE', #167, #261, #219 ) ;
#89 = CC_DESIGN_PERSON_AND_ORGANIZATION_ASSIGNMENT ( #137, #164, ( #315 ) ) ;
#90 = PERSON_AND_ORGANIZATION ( #2, #207 ) ;
#91 = ADVANCED_FACE ( 'NONE', ( #263 ), #49, .F. ) ;
#92 = EDGE_CURVE ( 'NONE', #290, #24, #100, .T. ) ;
#93 = VECTOR ( 'NONE', #165, 1000.000000000000000 ) ;
#94 = CARTESIAN_POINT ( 'NONE',  ( -12.69999999999999574, -12.69999999999999396, -12.69999999999999929 ) ) ;
#95 = CC_DESIGN_SECURITY_CLASSIFICATION ( #26, ( #315 ) ) ;
#96 = DIRECTION ( 'NONE',  ( -2.220446049250312588E-16, 1.000000000000000000, 0.000000000000000000 ) ) ;
#97 = PLANE ( 'NONE',  #243 ) ;
#98 = DIRECTION ( 'NONE',  ( 1.000000000000000000, 0.000000000000000000, 0.000000000000000000 ) ) ;
#99 = DIRECTION ( 'NONE',  ( -2.220446049250312588E-16, 1.000000000000000000, 0.000000000000000000 ) ) ;
#100 = LINE ( 'NONE', #75, #198 ) ;
#101 = VECTOR ( 'NONE', #106, 1000.000000000000000 ) ;
#102 = CARTESIAN_POINT ( 'NONE',  ( 12.69999999999999574, 12.69999999999999574, -12.69999999999999929 ) ) ;
#103 = LINE ( 'NONE', #273, #180 ) ;
#104 = FACE_OUTER_BOUND ( 'NONE', #236, .T. ) ;
#105 = ORIENTED_EDGE ( 'NONE', *, *, #13, .F. ) ;
#106 = DIRECTION ( 'NONE',  ( 0.000000000000000000, 0.000000000000000000, -1.000000000000000000 ) ) ;
#107 = EDGE_LOOP ( 'NONE', ( #155, #60, #120, #5 ) ) ;
#108 = APPLICATION_CONTEXT ( 'configuration controlled 3d designs of mechanical parts and assemblies' ) ;
#109 = VERTEX_POINT ( 'NONE', #266 ) ;
#110 = APPROVAL_DATE_TIME ( #306, #15 ) ;
#111 = EDGE_CURVE ( 'NONE', #191, #290, #169, .T. ) ;
#112 = DATE_TIME_ROLE ( 'classification_date' ) ;
#113 = APPLICATION_PROTOCOL_DEFINITION ( 'international standard', 'config_control_design', 1994, #288 ) ;
#114 = EDGE_CURVE ( 'NONE', #177, #48, #246, .T. ) ;
#115 = VECTOR ( 'NONE', #228, 1000.000000000000000 ) ;
#116 = EDGE_CURVE ( 'NONE', #24, #191, #186, .T. ) ;
#117 = CC_DESIGN_APPROVAL ( #311, ( #315 ) ) ;
#118 = EDGE_LOOP ( 'NONE', ( #259, #247, #163, #128 ) ) ;
#119 = PERSON_AND_ORGANIZATION ( #2, #207 ) ;
#120 = ORIENTED_EDGE ( 'NONE', *, *, #283, .F. ) ;
#121 =( LENGTH_UNIT ( ) NAMED_UNIT ( * ) SI_UNIT ( .MILLI., .METRE. ) );
#122 = DIRECTION ( 'NONE',  ( 0.000000000000000000, 0.000000000000000000, -1.000000000000000000 ) ) ;
#123 = ORIENTED_EDGE ( 'NONE', *, *, #28, .T. ) ;
#124 = CARTESIAN_POINT ( 'NONE',  ( -12.69999999999999751, -12.69999999999999929, 12.69999999999999929 ) ) ;
#125 = FACE_OUTER_BOUND ( 'NONE', #131, .T. ) ;
#126 = UNCERTAINTY_MEASURE_WITH_UNIT (LENGTH_MEASURE( 1.000000000000000082E-05 ), #121, 'distance_accuracy_value', 'NONE');
#127 = PLANE ( 'NONE',  #38 ) ;
#128 = ORIENTED_EDGE ( 'NONE', *, *, #197, .T. ) ;
#129 = CARTESIAN_POINT ( 'NONE',  ( 12.69999999999999574, 12.69999999999999574, 12.69999999999999929 ) ) ;
#130 = DIRECTION ( 'NONE',  ( 1.000000000000000000, -2.220446049250312588E-16, 0.000000000000000000 ) ) ;
#131 = EDGE_LOOP ( 'NONE', ( #87, #35, #275 ) ) ;
#132 = EDGE_CURVE ( 'NONE', #226, #109, #285, .T. ) ;
#133 = APPROVAL_DATE_TIME ( #37, #232 ) ;
#134 = VECTOR ( 'NONE', #156, 1000.000000000000114 ) ;
#135 = ORIENTED_EDGE ( 'NONE', *, *, #301, .T. ) ;
#136 = PERSON_AND_ORGANIZATION ( #2, #207 ) ;
#137 = PERSON_AND_ORGANIZATION ( #2, #207 ) ;
#138 = CLOSED_SHELL ( 'NONE', ( #184, #91, #312, #270, #162 ) ) ;
#139 = DIRECTION ( 'NONE',  ( -2.220446049250312588E-16, 1.000000000000000000, 0.000000000000000000 ) ) ;
#140 = ADVANCED_FACE ( 'NONE', ( #81 ), #127, .T. ) ;
#141 = DATE_AND_TIME ( #45, #293 ) ;
#142 = DIRECTION ( 'NONE',  ( 1.000000000000000000, 0.000000000000000000, 0.000000000000000000 ) ) ;
#143 = CALENDAR_DATE ( 2020, 22, 12 ) ;
#144 = LINE ( 'NONE', #94, #213 ) ;
#145 = ADVANCED_FACE ( 'NONE', ( #104 ), #4, .F. ) ;
#146 = EDGE_LOOP ( 'NONE', ( #217, #239, #300, #52 ) ) ;
#147 = FACE_OUTER_BOUND ( 'NONE', #179, .T. ) ;
#148 = DIRECTION ( 'NONE',  ( 1.000000000000000000, -2.220446049250312588E-16, 0.000000000000000000 ) ) ;
#149 = EDGE_CURVE ( 'NONE', #226, #242, #57, .T. ) ;
#150 = ORIENTED_EDGE ( 'NONE', *, *, #111, .F. ) ;
#151 = VECTOR ( 'NONE', #68, 999.9999999999998863 ) ;
#152 = CARTESIAN_POINT ( 'NONE',  ( -12.70000000000000284, 12.70000000000000284, 12.69999999999999929 ) ) ;
#153 = VECTOR ( 'NONE', #178, 1000.000000000000000 ) ;
#154 = LINE ( 'NONE', #251, #115 ) ;
#155 = ORIENTED_EDGE ( 'NONE', *, *, #196, .T. ) ;
#156 = DIRECTION ( 'NONE',  ( -0.7071067811865474617, -0.7071067811865474617, 0.000000000000000000 ) ) ;
#157 = CC_DESIGN_PERSON_AND_ORGANIZATION_ASSIGNMENT ( #160, #64, ( #161 ) ) ;
#158 = CALENDAR_DATE ( 2020, 22, 12 ) ;
#159 = MANIFOLD_SOLID_BREP ( 'Í¹Ì¨-À', #138 ) ;
#160 = PERSON_AND_ORGANIZATION ( #2, #207 ) ;
#161 = PRODUCT ( 'BK7-LPBSC-25.4-780', 'BK7-LPBSC-25.4-780', '', ( #11 ) ) ;
#162 = ADVANCED_FACE ( 'NONE', ( #249 ), #199, .F. ) ;
#163 = ORIENTED_EDGE ( 'NONE', *, *, #111, .T. ) ;
#164 = PERSON_AND_ORGANIZATION_ROLE ( 'design_supplier' ) ;
#165 = DIRECTION ( 'NONE',  ( -0.000000000000000000, -0.000000000000000000, -1.000000000000000000 ) ) ;
#166 = LINE ( 'NONE', #73, #220 ) ;
#167 = CARTESIAN_POINT ( 'NONE',  ( 12.69999999999999574, 12.69999999999999574, 12.69999999999999929 ) ) ;
#168 = CARTESIAN_POINT ( 'NONE',  ( 0.000000000000000000, 0.000000000000000000, 12.69999999999999929 ) ) ;
#169 = LINE ( 'NONE', #222, #258 ) ;
#170 =( NAMED_UNIT ( * ) PLANE_ANGLE_UNIT ( ) SI_UNIT ( $, .RADIAN. ) );
#171 = DIRECTION ( 'NONE',  ( 0.000000000000000000, 0.000000000000000000, 1.000000000000000000 ) ) ;
#172 = CARTESIAN_POINT ( 'NONE',  ( 12.69999999999999929, -12.69999999999999929, 12.69999999999999929 ) ) ;
#173 = DIRECTION ( 'NONE',  ( -0.000000000000000000, 0.000000000000000000, 1.000000000000000000 ) ) ;
#174 = PRODUCT_RELATED_PRODUCT_CATEGORY ( 'detail', '', ( #161 ) ) ;
#175 = AXIS2_PLACEMENT_3D ( 'NONE', #168, #248, #190 ) ;
#176 = PLANE ( 'NONE',  #211 ) ;
#177 = VERTEX_POINT ( 'NONE', #297 ) ;
#178 = DIRECTION ( 'NONE',  ( 0.000000000000000000, 0.000000000000000000, -1.000000000000000000 ) ) ;
#179 = EDGE_LOOP ( 'NONE', ( #278, #201, #62 ) ) ;
#180 = VECTOR ( 'NONE', #34, 1000.000000000000000 ) ;
#181 = DATE_AND_TIME ( #158, #14 ) ;
#182 = APPLICATION_PROTOCOL_DEFINITION ( 'international standard', 'config_control_design', 1994, #108 ) ;
#183 = CC_DESIGN_DATE_AND_TIME_ASSIGNMENT ( #141, #112, ( #26 ) ) ;
#184 = ADVANCED_FACE ( 'NONE', ( #84 ), #176, .F. ) ;
#185 = PERSON_AND_ORGANIZATION ( #2, #207 ) ;
#186 = LINE ( 'NONE', #44, #240 ) ;
#187 = PERSON_AND_ORGANIZATION_ROLE ( 'creator' ) ;
#188 = DIRECTION ( 'NONE',  ( 0.000000000000000000, -0.000000000000000000, 1.000000000000000000 ) ) ;
#189 = PLANE ( 'NONE',  #175 ) ;
#190 = DIRECTION ( 'NONE',  ( 1.000000000000000000, 0.000000000000000000, 0.000000000000000000 ) ) ;
#191 = VERTEX_POINT ( 'NONE', #152 ) ;
#192 = ORIENTED_EDGE ( 'NONE', *, *, #36, .F. ) ;
#193 = PLANE ( 'NONE',  #43 ) ;
#194 = PLANE ( 'NONE',  #88 ) ;
#195 = CARTESIAN_POINT ( 'NONE',  ( 0.000000000000000000, 0.000000000000000000, -12.69999999999999929 ) ) ;
#196 = EDGE_CURVE ( 'NONE', #46, #109, #154, .T. ) ;
#197 = EDGE_CURVE ( 'NONE', #290, #177, #31, .T. ) ;
#198 = VECTOR ( 'NONE', #215, 999.9999999999998863 ) ;
#199 = PLANE ( 'NONE',  #313 ) ;
#200 = ORIENTED_EDGE ( 'NONE', *, *, #28, .F. ) ;
#201 = ORIENTED_EDGE ( 'NONE', *, *, #10, .T. ) ;
#202 = CARTESIAN_POINT ( 'NONE',  ( -12.69999999999999751, -12.69999999999999929, -12.69999999999999929 ) ) ;
#203 = EDGE_CURVE ( 'NONE', #271, #177, #103, .T. ) ;
#204 = EDGE_LOOP ( 'NONE', ( #123, #205, #3, #268 ) ) ;
#205 = ORIENTED_EDGE ( 'NONE', *, *, #317, .F. ) ;
#206 = COORDINATED_UNIVERSAL_TIME_OFFSET ( 8, 0, .AHEAD. ) ;
#207 = ORGANIZATION ( 'UNSPECIFIED', 'UNSPECIFIED', '' ) ;
#208 = COORDINATED_UNIVERSAL_TIME_OFFSET ( 8, 0, .AHEAD. ) ;
#209 = SECURITY_CLASSIFICATION_LEVEL ( 'unclassified' ) ;
#210 = AXIS2_PLACEMENT_3D ( 'NONE', #86, #130, #54 ) ;
#211 = AXIS2_PLACEMENT_3D ( 'NONE', #59, #296, #61 ) ;
#212 = CARTESIAN_POINT ( 'NONE',  ( -12.69999999999999574, -12.69999999999999396, 12.69999999999999929 ) ) ;
#213 = VECTOR ( 'NONE', #96, 1000.000000000000000 ) ;
#214 = COORDINATED_UNIVERSAL_TIME_OFFSET ( 8, 0, .AHEAD. ) ;
#215 = DIRECTION ( 'NONE',  ( -0.7071067811865475727, -0.7071067811865475727, 0.000000000000000000 ) ) ;
#216 =( NAMED_UNIT ( * ) SI_UNIT ( $, .STERADIAN. ) SOLID_ANGLE_UNIT ( ) );
#217 = ORIENTED_EDGE ( 'NONE', *, *, #114, .F. ) ;
#218 = LINE ( 'NONE', #77, #9 ) ;
#219 = DIRECTION ( 'NONE',  ( 0.7071067811865475727, 0.7071067811865475727, 0.000000000000000000 ) ) ;
#220 = VECTOR ( 'NONE', #98, 1000.000000000000000 ) ;
#221 = LINE ( 'NONE', #25, #267 ) ;
#222 = CARTESIAN_POINT ( 'NONE',  ( 12.69999999999999574, 12.69999999999999574, 12.69999999999999929 ) ) ;
#223 = LOCAL_TIME ( 11, 15, 3.000000000000000000, #214 ) ;
#224 = CARTESIAN_POINT ( 'NONE',  ( 0.000000000000000000, 0.000000000000000000, -12.69999999999999929 ) ) ;
#225 = CARTESIAN_POINT ( 'NONE',  ( 0.000000000000000000, 0.000000000000000000, 12.69999999999999929 ) ) ;
#226 = VERTEX_POINT ( 'NONE', #227 ) ;
#227 = CARTESIAN_POINT ( 'NONE',  ( 12.69999999999999929, 12.69999999999999929, 12.69999999999999929 ) ) ;
#228 = DIRECTION ( 'NONE',  ( -0.000000000000000000, 1.000000000000000000, -0.000000000000000000 ) ) ;
#229 = VERTEX_POINT ( 'NONE', #202 ) ;
#230 = VECTOR ( 'NONE', #47, 1000.000000000000000 ) ;
#231 = APPROVAL_DATE_TIME ( #309, #311 ) ;
#232 = APPROVAL ( #17, 'UNSPECIFIED' ) ;
#233 = LOCAL_TIME ( 11, 15, 3.000000000000000000, #206 ) ;
#234 = CARTESIAN_POINT ( 'NONE',  ( 0.000000000000000000, 0.000000000000000000, 0.000000000000000000 ) ) ;
#235 = PRODUCT_DEFINITION_SHAPE ( 'NONE', 'NONE',  #78 ) ;
#236 = EDGE_LOOP ( 'NONE', ( #58, #105, #53, #82 ) ) ;
#237 = EDGE_CURVE ( 'NONE', #191, #271, #27, .T. ) ;
#238 = PERSON_AND_ORGANIZATION ( #2, #207 ) ;
#239 = ORIENTED_EDGE ( 'NONE', *, *, #197, .F. ) ;
#240 = VECTOR ( 'NONE', #139, 1000.000000000000000 ) ;
#241 = LINE ( 'NONE', #245, #83 ) ;
#242 = VERTEX_POINT ( 'NONE', #277 ) ;
#243 = AXIS2_PLACEMENT_3D ( 'NONE', #72, #287, #1 ) ;
#244 = DIRECTION ( 'NONE',  ( 0.000000000000000000, 1.000000000000000000, 0.000000000000000000 ) ) ;
#245 = CARTESIAN_POINT ( 'NONE',  ( 12.69999999999999929, -12.69999999999999929, 12.69999999999999929 ) ) ;
#246 = LINE ( 'NONE', #102, #151 ) ;
#247 = ORIENTED_EDGE ( 'NONE', *, *, #237, .F. ) ;
#248 = DIRECTION ( 'NONE',  ( -0.000000000000000000, 0.000000000000000000, 1.000000000000000000 ) ) ;
#249 = FACE_OUTER_BOUND ( 'NONE', #30, .T. ) ;
#250 = DIRECTION ( 'NONE',  ( -2.220446049250312588E-16, 1.000000000000000000, 0.000000000000000000 ) ) ;
#251 = CARTESIAN_POINT ( 'NONE',  ( 12.69999999999999929, 12.69999999999999929, -12.69999999999999929 ) ) ;
#252 = ORIENTED_EDGE ( 'NONE', *, *, #92, .F. ) ;
#253 = CALENDAR_DATE ( 2020, 22, 12 ) ;
#254 = CC_DESIGN_PERSON_AND_ORGANIZATION_ASSIGNMENT ( #136, #41, ( #315 ) ) ;
#255 = APPROVAL_STATUS ( 'not_yet_approved' ) ;
#256 = AXIS2_PLACEMENT_3D ( 'NONE', #234, #12, #286 ) ;
#257 = ADVANCED_FACE ( 'NONE', ( #125 ), #193, .F. ) ;
#258 = VECTOR ( 'NONE', #148, 1000.000000000000000 ) ;
#259 = ORIENTED_EDGE ( 'NONE', *, *, #203, .F. ) ;
#260 = COORDINATED_UNIVERSAL_TIME_OFFSET ( 8, 0, .AHEAD. ) ;
#261 = DIRECTION ( 'NONE',  ( -0.7071067811865475727, 0.7071067811865475727, 0.000000000000000000 ) ) ;
#262 = APPROVAL_ROLE ( '' ) ;
#263 = FACE_OUTER_BOUND ( 'NONE', #204, .T. ) ;
#264 = ORIENTED_EDGE ( 'NONE', *, *, #196, .F. ) ;
#265 = PLANE ( 'NONE',  #279 ) ;
#266 = CARTESIAN_POINT ( 'NONE',  ( 12.69999999999999929, 12.69999999999999929, -12.69999999999999929 ) ) ;
#267 = VECTOR ( 'NONE', #318, 1000.000000000000114 ) ;
#268 = ORIENTED_EDGE ( 'NONE', *, *, #36, .T. ) ;
#269 = CARTESIAN_POINT ( 'NONE',  ( -12.70000000000000284, 12.70000000000000284, -12.69999999999999929 ) ) ;
#270 = ADVANCED_FACE ( 'NONE', ( #147 ), #189, .T. ) ;
#271 = VERTEX_POINT ( 'NONE', #269 ) ;
#272 = CARTESIAN_POINT ( 'NONE',  ( 12.69999999999999574, 12.69999999999999574, 12.69999999999999929 ) ) ;
#273 = CARTESIAN_POINT ( 'NONE',  ( 12.69999999999999574, 12.69999999999999574, -12.69999999999999929 ) ) ;
#274 = DIRECTION ( 'NONE',  ( 1.000000000000000000, 0.000000000000000000, 0.000000000000000000 ) ) ;
#275 = ORIENTED_EDGE ( 'NONE', *, *, #203, .T. ) ;
#276 = ADVANCED_FACE ( 'NONE', ( #291 ), #265, .F. ) ;
#277 = CARTESIAN_POINT ( 'NONE',  ( -12.69999999999999751, -12.69999999999999929, 12.69999999999999929 ) ) ;
#278 = ORIENTED_EDGE ( 'NONE', *, *, #149, .T. ) ;
#279 = AXIS2_PLACEMENT_3D ( 'NONE', #272, #19, #51 ) ;
#280 = CC_DESIGN_PERSON_AND_ORGANIZATION_ASSIGNMENT ( #90, #187, ( #78 ) ) ;
#281 = APPROVAL_ROLE ( '' ) ;
#282 = VECTOR ( 'NONE', #142, 1000.000000000000000 ) ;
#283 = EDGE_CURVE ( 'NONE', #299, #226, #218, .T. ) ;
#284 = CC_DESIGN_PERSON_AND_ORGANIZATION_ASSIGNMENT ( #185, #7, ( #26 ) ) ;
#285 = LINE ( 'NONE', #70, #93 ) ;
#286 = DIRECTION ( 'NONE',  ( 1.000000000000000000, 0.000000000000000000, 0.000000000000000000 ) ) ;
#287 = DIRECTION ( 'NONE',  ( -1.000000000000000000, 0.000000000000000000, 0.000000000000000000 ) ) ;
#288 = APPLICATION_CONTEXT ( 'configuration controlled 3d designs of mechanical parts and assemblies' ) ;
#289 = LINE ( 'NONE', #212, #32 ) ;
#290 = VERTEX_POINT ( 'NONE', #295 ) ;
#291 = FACE_OUTER_BOUND ( 'NONE', #118, .T. ) ;
#292 = EDGE_LOOP ( 'NONE', ( #252, #150, #85 ) ) ;
#293 = LOCAL_TIME ( 11, 15, 3.000000000000000000, #260 ) ;
#294 = DIRECTION ( 'NONE',  ( 0.000000000000000000, 0.000000000000000000, 1.000000000000000000 ) ) ;
#295 = CARTESIAN_POINT ( 'NONE',  ( 12.69999999999999574, 12.69999999999999574, 12.69999999999999929 ) ) ;
#296 = DIRECTION ( 'NONE',  ( 0.7071067811865475727, -0.7071067811865475727, 0.000000000000000000 ) ) ;
#297 = CARTESIAN_POINT ( 'NONE',  ( 12.69999999999999574, 12.69999999999999574, -12.69999999999999929 ) ) ;
#298 = LOCAL_TIME ( 11, 15, 3.000000000000000000, #67 ) ;
#299 = VERTEX_POINT ( 'NONE', #172 ) ;
#300 = ORIENTED_EDGE ( 'NONE', *, *, #92, .T. ) ;
#301 = EDGE_CURVE ( 'NONE', #109, #229, #221, .T. ) ;
#302 = AXIS2_PLACEMENT_3D ( 'NONE', #124, #244, #188 ) ;
#303 = EDGE_LOOP ( 'NONE', ( #135, #192, #6, #50 ) ) ;
#304 = CALENDAR_DATE ( 2020, 22, 12 ) ;
#305 =( GEOMETRIC_REPRESENTATION_CONTEXT ( 3 ) GLOBAL_UNCERTAINTY_ASSIGNED_CONTEXT ( ( #126 ) ) GLOBAL_UNIT_ASSIGNED_CONTEXT ( ( #121, #170, #216 ) ) REPRESENTATION_CONTEXT ( 'NONE', 'WORKASPACE' ) );
#306 = DATE_AND_TIME ( #304, #298 ) ;
#307 = DATE_TIME_ROLE ( 'creation_date' ) ;
#308 = CLOSED_SHELL ( 'NONE', ( #42, #145, #276, #140, #257 ) ) ;
#309 = DATE_AND_TIME ( #143, #223 ) ;
#310 = APPROVAL_PERSON_ORGANIZATION ( #39, #311, #262 ) ;
#311 = APPROVAL ( #65, 'UNSPECIFIED' ) ;
#312 = ADVANCED_FACE ( 'NONE', ( #74 ), #97, .F. ) ;
#313 = AXIS2_PLACEMENT_3D ( 'NONE', #224, #173, #274 ) ;
#314 = APPROVAL_ROLE ( '' ) ;
#315 = PRODUCT_DEFINITION_FORMATION_WITH_SPECIFIED_SOURCE ( 'ANY', '', #161, .NOT_KNOWN. ) ;
#316 = CARTESIAN_POINT ( 'NONE',  ( -12.69999999999999574, -12.69999999999999396, -12.69999999999999929 ) ) ;
#317 = EDGE_CURVE ( 'NONE', #299, #46, #241, .T. ) ;
#318 = DIRECTION ( 'NONE',  ( -0.7071067811865474617, -0.7071067811865474617, 0.000000000000000000 ) ) ;
#319 = LINE ( 'NONE', #21, #230 ) ;
#320 = APPROVAL_PERSON_ORGANIZATION ( #238, #232, #281 ) ;
#321 = ORIENTED_EDGE ( 'NONE', *, *, #301, .F. ) ;
ENDSEC;
END-ISO-10303-21;
